TabNabber Tabs   Musician Supported
  Tabs de Piano
Espa˝ol English
Franšais Русский
guitar

Guitar Tab, Acordes



(0 from 0 votes)
281 Vistas, ´┐Żltima Revisi´┐Żn 22 days ago
by: BACHVS
guest

Pro Tabber
[Pro Tabber]
Stave 1:

E|--------2--0--2--|--2--0--------------|--------3--0-----5--|--2-----0-----|--------3--2--3--5--|--3--2--0-----------|--
B|-----------------|--------3--2--3-----|--0--3--------2-----|--------------|-----2--------------|-----------3--2--0--|--
G|-----2-----------|-----------------2--|--------------------|--2-----2-----|--------------------|--------------------|--
D|--0--------------|--0-----------------|--------------------|-----0--------|--2--------0--------|--2-----------------|--
A|-----------4-----|--------------------|--------------0-----|--------------|--------------------|--------------0-----|--
D|-----------------|--------0-----4-----|--5-----2-----------|--0-----------|--------------------|--------5-----------|--

Stave 2:

E|-----------------------|-----------:|--------------------|--------------------|--------------2--5--|-----5--3--2--3--|--
B|--2--3--5--3--2--0--2--|-----------:|-----2--5-----5--7--|--5--3--2--------2--|--------4--5--------|-----------------|--
G|-----------------------|--2--------:|--2--------4--------|--0--------4--2-----|-----2--------------|-----------------|--
D|-----------------------|-----2-----:|-----------4--------|--------2-----5-----|--4-----------1-----|--2--------------|--
A|--0--------------------|--------0--:|--0-----------------|--------------------|--------------------|-----------------|--
D|-----------0-----4-----|-----------:|--------------------|--------------------|--------------------|--------------2--|--

Stave 3:

E|-----------3--2--0--|--2--------0--3--2--|--0-----------------|--------------|--------------------|--------------------|--
B|-----2--5-----------|-----0--------------|-----3--2--0--------|-----0--------|--------3-----------|--------------------|--
G|--3-----------------|--------------------|-----------------3--|--------2--0--|-----2-----2--4--5--|--5--2--4-----------|--
D|--------------------|--------0-----2-----|--------------------|--------------|--4-----------------|-----------5-----4--|--
A|--------------1-----|--------------------|--------------------|--2-----4-----|--------------------|--------------------|--
D|--4-----------------|--------------------|--5-----2-----4-----|--------------|--0--------4--------|--5-----------5-----|--

Stave 4:

E|--------------------|--------------------|--------0--3--2--5--|--------2--5--3--7--|--5-----------------|-----------:|--
B|-----0--5-----------|--------------------|-----2--------------|--0--3--------------|--------3--------2--|--3--------:|--
G|--1--------4--6--7--|--7--4--6-----------|--2-----------------|--0-----------------|-----6--------------|-----------:|--
D|--------------------|-----------7-----2--|--4-----2-----0-----|--------4-----2-----|--4--------4--2-----|--0--------:|--
A|--------------------|--0-----------0-----|--------------------|--------------------|--------------0-----|-----0-----:|--
D|--2--------6--------|--------------------|--------------------|--------------------|--------5-----------|--------0--:|--

Stave 5:

E|--------------------|-----------|--------------------|--------------------|--1--0--1-----------|-----------|--------------------|--
B|--6--5--6-----------|-----5-----|--3--2--3-----------|-----------3--2--5--|--------------------|-----5-----|--3--2--3-----------|--
G|-----------2--3-----|--------2--|--------------0-----|--------2-----------|-----------2--3-----|--------2--|--------------0-----|--
D|--------------------|-----------|-----------3--------|-----2--------------|-----------------0--|-----------|-----------3--------|--
A|-----------------5--|--3--------|--1--------------1--|--0-----------------|--------------------|--3--------|--1--------------2--|--
D|--0-----------------|-----------|--------------------|--------------------|--0-----------------|-----------|--------------2-----|--

Stave 6:

E|-----------:|--------0--3--6--5--|--3--1--0--1--0-----|--------------5--3--|--1--0-----0--------|--------------------|--
B|-----3--2--:|-----2--------------|-----------------3--|-----0--3--6--------|--------3-----1-----|--------6--5--6-----|--
G|-----------:|--2-----------------|--------------------|--0-----------------|-----------------3--|--2--5--------------|--
D|-----------:|--------------------|--0-----------------|--------------------|--------------------|-----------------7--|--
A|--0--------:|--0-----------4-----|--------------------|--------------------|--3-----------------|--------------------|--
D|-----------:|--------------------|--------------3-----|--5-----------------|--------------2-----|--3-----------------|--

Stave 7:

E|-----------------5--|-----6--5-----------|--1--------------|--------------------|--------3--5--5--6--|--------------------|--
B|--------6--5--6-----|--8--------6--6--5--|-----1-----1-----|-----------4--3-----|-----3--------------|-----------3--1-----|--
G|-----7--------------|--------------------|--------2--------|--------5--------5--|--3-----------0-----|-----0--3--------3--|--
D|--8-----------------|--------3-----------|--------------3--|--4--7--------------|--------------------|--2-----------------|--
A|--5-----------------|--7-----------3-----|-----------------|--------------------|--------------------|--3-----------------|--
D|--------------------|--------------------|--3--------------|--0-----------4-----|--5-----------------|--------------2-----|--

Stave 8:

E|--------1--3--3--5--|--------------------|-----------0--1-----|-----1--0-----------|-----|--
B|-----1--------------|--------------------|--------3--------3--|-----------3--3--2--|-----|--
G|--2-----------------|--------0--3--2--0--|-----2--------------|--0-----------------|-----|--
D|--------------3-----|-----2--------------|--3-----------0-----|--------------------|--0--|--
A|--------------------|--4-----------0-----|--------------------|--1-----------0-----|-----|--
D|--3-----------------|--------------------|--------------------|--------5-----------|--0--|--


Login to Edit
Edit
YouTube
Video
View Sheet Music
Sheet
Music
Print
Speed:
Play Intro (login for the full song)
Play
Intro
Sustain:
Download midi (intro) ...

 Rate:
5 star
4 star
3 star
2 star
1 star
 

Comments (0)
 

No comments yet...

Comment on this tab   -   Unhelpful comments are exterminated.
  Your Guest Name:
      [Member Login]
  Comments:
 

Don't understand the tab?
See "How to Read Guitar Tabs".
Supported tags:
<i>italics</i>
<b>bold</b>
<u>underline</u>
<tab>tab lines</tab>
  Are you a spam robot?

If not, solve the equation:




[46140 TabNabbers online]


©2022 TabNabber.com - Musician Supported Contact us Advertising Merchandise Privacy Policy Terms of Use facebook Twitter