TabNabber Tabs   Musician Supported
  Tabs de Piano
Espa˝ol English
Franšais Русский
Artista: # A B C D E F G H I J K L M N O P Q R S T U V W X Y Z
guitar

Guitar Tab, Acordes



(5 from 1 votes)
10,672 Vistas, ´┐Żltima Revisi´┐Żn 12 years ago
by: megli808


Tabbenator
[Tabbenator]
e|------------------------------------------------------------------|
B|-----------------------------------------------0------0-1---------|
G|---------0---------------0---------------0------------------------|
D|---2---2---2---2---2---2---2---2---2---2---2------2---------------|
A|-3---3-------3---2---2-------2---3---3-------3------3-------------|
E|------------------------------------------------------------------|

e|------------------------------------------------------------------|
B|------------------------------------------------------------------|
G|---------0---------------0---------------0------------------------|
D|---2---2---2---2---2---2---2---2---2---2---2---2-0/2-0/2-0/2-0/2--|
A|-3---3-------3---3---3-------3---3---3-------3--------------------|
E|------------------------------------------------------------------|

e|------------------------------------------------------------------|
B|-----------------------------------------------0------0-1---------|
G|---------0---------------0---------------0------------------------|
D|---2---2---2---2---2---2---2---2---2---2---2------2---------------|
A|-3---3-------3---2---2-------2---3---3-------3------3-------------|
E|------------------------------------------------------------------|

                In the li-ght of the sun...

e|------------------------------------------------------------------|
B|------------------------------------------------------------------|
G|---------0---------------0---------------0------------------------|
D|---2---2---2---2---2---2---2---2---2---2---2---2-0/2-0/2-0/2-0/2--|
A|-3---3-------3---3---3-------3---3---3-------3--------------------|
E|------------------------------------------------------------------|

   Is there anyone...              Oh it has begun.........unn.

e|------------------------------------------------------------------|
B|-----------------------------------------------0------0-1---------|
G|---------0---------------0---------------0------------------------|
D|---2---2---2---2---2---2---2---2---2---2---2------2---------------|
A|-3---3-------3---2---2-------2---3---3-------3------3-------------|
E|------------------------------------------------------------------|

   Oh dear, you look so lost..........

e|------------------------------------------------------------------|
B|------------------------------------------------------------------|
G|---------0---------------0---------------0------------------------|
D|---2---2---2---2---2---2---2---2---2---2---2---2-0/2-0/2-0/2-0/2--|
A|-3---3-------3---3---3-------3---3---3-------3--------------------|
E|------------------------------------------------------------------|

Eyes are red and tears are shed.   This world you must've crossed to say...

e|------------------------------------------------------------------|
B|------------------------------------------------------------------|
G|-0-0-0-0-0-0-0-0-0-0-0-0-0-0-0-0-0-0-0-0-0-0-0-0-0-0-0-0-0--------|
D|-2-2-2-2-2-2-2-2-2-2-2-2-0-0-0-0-2-2-2-2-2-2-2-2-2-2-2-2-0--------|
A|-3-3-3-3-2-2-2-2-0-0-0-0-2-2-2-2-3-3-3-3-2-2-2-2-0-0-0-0-2--------|
E|------------------------------------------------------------------|

  You don't, know me. And you don't, even care... oh yeah...
  Well you said, you don't, know me, and you, don't,wear my chains. Oh yeah. yeah.

e|--3--3--0---------------0--3--0--3-----------------------------|
B|--1--3--1----1---0-1----1--1--1--3-----------------------------|
G|--0--0--2---------------0--0--0--0-----------------------------|
D|--2--2--2---------------2--2--2--0-----------------------------|
A|--3--2--0---------------3--3--3--2-----------------------------|
E|--0--0--0---------------0--0--0--3-----------------------------|

e|--3--3--0---------------0--3--0--3-----------------------------|
B|--1--3--1----1---0-1----1--1--1--3-----------------------------|
G|--0--0--2---------------0--0--0--0-----------------------------|
D|--2--2--2---------------2--2--2--0-----------------------------|
A|--3--2--0---------------3--3--3--2-----------------------------|
E|--0--0--0---------------0--0--0--3-----------------------------|

  Essential yet appealed... Carry all your thoughts, across an open field.

e|--3--3--0---------------0--3--0--3-----------------------------|
B|--1--3--1----1---0-1----1--1--1--3-----------------------------|
G|--0--0--2---------------0--0--0--0-----------------------------|
D|--2--2--2---------------2--2--2--0-----------------------------|
A|--3--2--0---------------3--3--3--2-----------------------------|
E|--0--0--0---------------0--0--0--3-----------------------------|

  When flowers gaze at you... they're not the only ones. Who cry when they see you said!

e|------------------------------------------------------------------|
B|------------------------------------------------------------------|
G|-0-0-0-0-0-0-0-0-0-0-0-0-0-0-0-0-0-0-0-0-0-0-0-0-0-0-0-0-0--------|
D|-2-2-2-2-2-2-2-2-2-2-2-2-0-0-0-0-2-2-2-2-2-2-2-2-2-2-2-2-0--------|
A|-3-3-3-3-2-2-2-2-0-0-0-0-2-2-2-2-3-3-3-3-2-2-2-2-0-0-0-0-2--------|
E|------------------------------------------------------------------|

  You don't, know me. And you don't, even care... oh yeah...
  Well you said, you don't, know me, and you, don't,wear my chains. Oh yeah. yeah.

* I end it there, I don't like the last part. *

e|------------------------------------------------------------------|
B|-----------------------------------------------0------0-1---------|
G|---------0---------------0---------------0------------------------|
D|---2---2---2---2---2---2---2---2---2---2---2------2---------------|
A|-3---3-------3---2---2-------2---3---3-------3------3-------------|
E|------------------------------------------------------------------|

e|------------------------------------------------------------------|
B|------------------------------------------------------------------|
G|---------0---------------0---------------0------------------------|
D|---2---2---2---2---2---2---2---2---2---2---2---2-0/2-0/2-0/2-0/2--|
A|-3---3-------3---3---3-------3---3---3-------3--------------------|
E|------------------------------------------------------------------|

  Boston....                       Where no one knows my... name.


Login to Edit
Edit
YouTube
Video
View Sheet Music
Sheet
Music
Print
Speed:
Play Intro (login for the full song)
Play
Intro
Sustain:
Download midi (intro) ...

1 Votes
5 star: 100%  (1)
4 star:  (0)
3 star:  (0)
2 star:  (0)
1 star:  (0)
0 star:  (0)
 Rate:
5 star
4 star
3 star
2 star
1 star
 

Comments (1)
 

Brooke Walburn
[Guest]
11 years ago
i cannot read tablature and i would deffinately appriciate it if you could put the chords on here! thanks :)
-brooke

Reply

Comment on this tab   -   Unhelpful comments are exterminated.
  Your Guest Name:
      [Member Login]
  Comments:
 

Don't understand the tab?
See "How to Read Guitar Tabs".
Supported tags:
<i>italics</i>
<b>bold</b>
<u>underline</u>
<tab>tab lines</tab>
  Are you a spam robot?

If not, solve the equation:




[509 TabNabbers online]
©2020 TabNabber.com - Musician Supported Contact us Advertising Merchandise Privacy Policy Terms of Use facebook Twitter