TabNabber Tabs   Musician Supported
  Tabs de Piano
Espa˝ol English
Franšais Русский
Artista: # A B C D E F G H I J K L M N O P Q R S T U V W X Y Z
Piano

Piano Tab, Acordes



(0 from 0 votes)
10,588 Vistas, ´┐Żltima Revisi´┐Żn 11 years ago
by: jesseyrocks


Tabber
[Tabber]
Intro/verse/chorus 

5|--|----------------------------|---------c------------------|-
3|--|---------c---g--e--f--a-g---|-------ff--d----------------|-
2|--|g--a--b---------------------|g-a-b-----------------------|-


solo

End Solo


-0-----0-1-----1-|3--------3-1-0---|0-----0-1-----1-|3-------3-1-0--------|
-----1-------1---|-------3-------3-|----1-------1---|----0-3-------3------|
---0-------2-----|--0--------------|--0-------2-----|--0------------------|
-----------------|-----------------|----------------|---------------------|
-----------------|-----------------|----------------|---------------------|
-----------------|-----------------|----------------|---------------------|

-0-----0-1-----1-|3-------3-1-0---|0-----0-1-----1-|3---------0-----------|
-----1-------1---|----0-3-------3-|----1-------1---|------1---------------|
---0-------2-----|--0-------------|--0-------2-----|----0-----------------|
-----------------|----------------|----------------|----------------------|
-----------------|----------------|----------------|----------------------|
-----------------|----------------|----------------|----------------------|

---3---3-5--5---|--3---3-3---1--|0-0---0---------|--------1-----1-|0--------------|
----------------|---------------|--------1-------|----0-3-----3---|----1----------|
-0--------------|0--------------|------------2---|0---------------|------0-2---2--|
----------------|---------------|----------------|----------------|---------------|
----------------|---------------|----------------|----------------|---------------|
----------------|---------------|----------------|----------------|---------------|

-----------------|--0-------------|----------------|--0---------------|
---3-0-3-0-3-0-3-|1---3-1-0-3-1---|----0-3-----0-3-|1---3-1-0-3-1-----|
-0---------------|--------------2-|0-------2-------|--------------2-0-|
-----------------|----------------|----------------|------------------|
-----------------|----------------|----------------|------------------|
-----------------|----------------|----------------|------------------|

-1-1-1---1---1-|--0-0-0---0---0-|--1-1-1---1---1-|--0-0-0---0---0-|----------0---|
-------0-------|--------1-------|--------0-------|--------1-------|------1-------|
-----------2---|0-----------2---|0-----------2---|0-----------2---|0---0---------|
---------------|----------------|----------------|----------------|--------------|
---------------|----------------|----------------|----------------|--------------|
---------------|----------------|----------------|----------------|--------------|

---3---5-5---5---|3------3-3---5-7-|8-8---8-8/10---10---|10-10---7-7--10-10-|
-----------------|-----------------|--------------------|-------------------|
-0---------------|-----------------|--------------------|-------------------|
-----------------|-----------------|--------------------|-------------------|
-----------------|-----------------|--------------------|-------------------|
-----------------|-----------------|--------------------|-------------------|

-8-8-10-10---8-10---|7-7-10-10-7-7-101010|10---8888---101010|10---7777---101010|
--------------------|--------------------|------------------|------------------|
--------------------|--------------------|------------------|------------------|
--------------------|--------------------|------------------|------------------|
--------------------|--------------------|------------------|------------------|
--------------------|--------------------|------------------|------------------|

10---8888---101010|10---7777---101010|8-8---8-7---5---|3-3---3-3---1---|
------------------|------------------|----------------|----------------|
------------------|------------------|----------------|----------------|
------------------|------------------|----------------|----------------|
------------------|------------------|----------------|----------------|
------------------|------------------|----------------|----------------|

-0-0---0---------|--1-----1-----1-|--0-----0-----0-|--1-----1-----1---|----|
---------1-------|------0---------|------1---------|------0-----------|----|
-------------2---|0-----------2---|0-----------2---|0-----------2-----|0---|
-----------------|----------------|----------------|------------------|----|
-----------------|----------------|----------------|------------------|----|
-----------------|----------------|----------------|------------------|----|
               (fade out)



Login to Edit
Edit
YouTube
Video
View Sheet Music
Sheet
Music
Voice / Instrument / Track Legend
Instr.
Map
Print
Speed:
Play Intro (login for the full song)
Play
Intro
Sustain:
Download midi (intro) ...

 Rate:
5 star
4 star
3 star
2 star
1 star
 

Comments (0)
 

No comments yet...

Comment on this tab   -   Unhelpful comments are exterminated.
  Your Guest Name:
      [Member Login]
  Comments:
 

Don't understand the tab?
See "How to Read Piano Tabs".
Supported tags:
<i>italics</i>
<b>bold</b>
<u>underline</u>
<tab>tab lines</tab>
  Are you a spam robot?

If not, solve the equation:




[183 TabNabbers online]
©2020 TabNabber.com - Musician Supported Contact us Advertising Merchandise Privacy Policy Terms of Use facebook Twitter